GTP файлы | Статьи. Все о гитарах | Аккорды | Софт | Обои | Карта сайта
Рейтинг@Mail.ru

- Чтение табулатур -


Tablature - это упрощенная форма записи нот. В отличие от классической формы записи нот и аккордов Tablature позволяет человеку, не знакомому с музыкальной грамотой, быстро определять, какие струны ему нужно прижать и на каких ладах.

Все очень просто. Струны гитары изображены в виде шести линий.

 |--------------------------------------------- 1-я струна (самая тонкая)
 |--------------------------------------------- 2-я струна
 |---------------------------------------------  3-я струна
 |--------------------------------------------- 4-я струна
 |--------------------------------------------- 5-я струна
 |--------------------------------------------- 6-я струна (самая толстая)
 

Цифра на линии указывает номер лада, на который нужно поставить палец, после чего нужно ударить медиатором по соответствующей струне. Если стоит цифра ноль, то играется "открытая" струна, то есть палец на струну не ставится.

|----------3-----------| |----------------------| |----------------------|
|----------------------| |----------1-----------| |----------------------|
|----------------------| |----------------------| |----------------------|
|----------------------| |----------------------| |----------------------|
|----------------------| |----------------------| |----------------------|
|----------------------| |----------------------| |-----------0----------|
Играйте 1-ю струну, 3-й лад   Играйте 2-ю струну,1-й лад    Играйте 6-ю открытую струну
 

Цифры, стоящие друг над другом, означают, что несколько струн играются одновременно (аккорд).  
 

|----------0-----------| |----------------------| |-----------0----------|
|----------1-----------| |----------0-----------| |-----------1----------|
|----------------------| |----------0-----------| |-----------0----------|
|----------------------| |----------0-----------| |-----------2----------|
|----------------------| |----------------------| |-----------3----------|
|----------------------| |----------------------| |----------------------|
 1-я струна открыта, 2-я струна   2-я, 3-я и 4-я струны открыты   Аккорд C, состоящий из
 прижата на 1-м ладу                                                            пяти нот
 

Помните, что самая тонкая струна, ближайшая к полу - первая, самая толстая, ближайшая к потолку - шестая. Когда гитаристы говорят "высокая нота", они подразумевают ноту высокой тональности, а не ноту, расположенную на струне, которая выше других на гитарном грифе. Самая низкая нота расположена на шестой открытой струне, самая высокая - на последнем ладу первой струны.

Это было несложно, правда? Именно простота сделала систему Tablature такой распространенной. Если бы ее не было, я уверен, что большинство сегодняшних гитаристов не решились бы на покупку гитары.

Второе преимущество этой системы - текстовый формат. Благодаря этому гитара в Internet - основной
музыкальный инструмент. Пошарьтесь по сети, и вы найдете транскрипции самых разных песен (если не всех). Называются такие файлы tablatures или сокращенно - tabs. В русской части Сети их кто-то обозвал "табулатурами", название прижилось, хотя лично мне кажется, что если бы слово tablature было в словаре, то перевод был бы "транскрипция". Считайте это моим подарком русскому языку.

Источник: www.metaltab.ru

© 2007 «GTP-files.narod.ru»

Хостинг от uCoz